ISO-10303-21;
HEADER;
FILE_DESCRIPTION (( 'STEP AP203' ),
    '1' );
FILE_NAME ('2.12.08.M6.STEP',
    '2014-06-24T02:22:33',
    ( 'USER' ),
    ( 'Microsoft' ),
    'SwSTEP 2.0',
    'SolidWorks 2012',
    '' );
FILE_SCHEMA (( 'CONFIG_CONTROL_DESIGN' ));
ENDSEC;

DATA;
#1 = ADVANCED_FACE ( 'NONE', ( #163 ), #70, .T. ) ;
#2 = ADVANCED_FACE ( 'NONE', ( #225 ), #89, .F. ) ;
#3 = ADVANCED_FACE ( 'NONE', ( #162 ), #157, .F. ) ;
#4 = ADVANCED_FACE ( 'NONE', ( #159 ), #62, .F. ) ;
#5 = ADVANCED_FACE ( 'NONE', ( #161, #155 ), #44, .F. ) ;
#6 = ADVANCED_FACE ( 'NONE', ( #156, #151 ), #36, .F. ) ;
#7 = ADVANCED_FACE ( 'NONE', ( #154 ), #83, .F. ) ;
#8 = ADVANCED_FACE ( 'NONE', ( #160 ), #153, .F. ) ;
#9 = DESIGN_CONTEXT ( 'detailed design', #241, 'design' ) ;
#10 = PRODUCT_DEFINITION_SHAPE ( 'NONE', 'NONE',  #276 ) ;
#11 = EDGE_CURVE ( 'NONE', #209, #213, #150, .T. ) ;
#12 = EDGE_CURVE ( 'NONE', #215, #209, #196, .T. ) ;
#13 = EDGE_CURVE ( 'NONE', #213, #229, #194, .T. ) ;
#14 = EDGE_CURVE ( 'NONE', #228, #219, #193, .T. ) ;
#15 = EDGE_CURVE ( 'NONE', #228, #229, #185, .T. ) ;
#16 = EDGE_CURVE ( 'NONE', #209, #228, #152, .T. ) ;
#17 = EDGE_CURVE ( 'NONE', #217, #210, #146, .T. ) ;
#18 = EDGE_CURVE ( 'NONE', #211, #213, #148, .T. ) ;
#19 = AXIS2_PLACEMENT_3D ( 'NONE', #266, #245, #244 ) ;
#20 = EDGE_CURVE ( 'NONE', #229, #212, #144, .T. ) ;
#21 = ADVANCED_BREP_SHAPE_REPRESENTATION ( '2.12.08.M6', ( #22, #19 ), #301 ) ;
#22 = MANIFOLD_SOLID_BREP ( 'M6 ÂÝÎÆ¿×1', #227 ) ;
#23 = UNCERTAINTY_MEASURE_WITH_UNIT (LENGTH_MEASURE( 1.000000000000000100E-005 ), #253, 'distance_accuracy_value', 'NONE');
#24 = CARTESIAN_POINT ( 'NONE',  ( -15.00000000000000000, -785.1153228810079600, -2165.805231443991500 ) ) ;
#25 = DIRECTION ( 'NONE',  ( 0.0000000000000000000, 0.0000000000000000000, 1.000000000000000000 ) ) ;
#26 = DIRECTION ( 'NONE',  ( 0.0000000000000000000, -0.0000000000000000000, -1.000000000000000000 ) ) ;
#27 = CARTESIAN_POINT ( 'NONE',  ( -15.00000000000000000, -788.1153228810079600, -2165.805231443991500 ) ) ;
#28 = DIRECTION ( 'NONE',  ( 1.000000000000000000, -0.0000000000000000000, -0.0000000000000000000 ) ) ;
#29 = DIRECTION ( 'NONE',  ( 1.000000000000000000, -0.0000000000000000000, -0.0000000000000000000 ) ) ;
#30 = DIRECTION ( 'NONE',  ( 0.0000000000000000000, -1.000000000000000000, 0.0000000000000000000 ) ) ;
#31 = CARTESIAN_POINT ( 'NONE',  ( -15.00000000000000000, -788.1153228810079600, -2165.805231443991500 ) ) ;
#32 = CARTESIAN_POINT ( 'NONE',  ( 0.0000000000000000000, -788.1153228810079600, -2180.805231443991000 ) ) ;
#33 = CARTESIAN_POINT ( 'NONE',  ( -15.00000000000000000, -788.1153228810079600, -2180.805231443991000 ) ) ;
#34 = CARTESIAN_POINT ( 'NONE',  ( 0.0000000000000000000, -785.1153228810079600, -2165.805231443991500 ) ) ;
#35 = CARTESIAN_POINT ( 'NONE',  ( -15.00000000000000000, -788.1153228810079600, -2165.805231443991500 ) ) ;
#36 = PLANE ( 'NONE',  #275 ) ;
#37 = DIRECTION ( 'NONE',  ( -0.0000000000000000000, 1.000000000000000000, -0.0000000000000000000 ) ) ;
#38 = CARTESIAN_POINT ( 'NONE',  ( -7.500000000000000000, -788.1153228810079600, -2170.805231443991000 ) ) ;
#39 = CARTESIAN_POINT ( 'NONE',  ( -15.00000000000000000, -785.1153228810079600, -2165.805231443991500 ) ) ;
#40 = CARTESIAN_POINT ( 'NONE',  ( 0.0000000000000000000, -785.1153228810079600, -2180.805231443991000 ) ) ;
#41 = CARTESIAN_POINT ( 'NONE',  ( 0.0000000000000000000, -785.1153228810079600, -2165.805231443991500 ) ) ;
#42 = DIRECTION ( 'NONE',  ( 1.000000000000000000, 0.0000000000000000000, -0.0000000000000000000 ) ) ;
#43 = DIRECTION ( 'NONE',  ( 0.0000000000000000000, -0.0000000000000000000, 1.000000000000000000 ) ) ;
#44 = PLANE ( 'NONE',  #291 ) ;
#45 = CARTESIAN_POINT ( 'NONE',  ( 0.0000000000000000000, -788.1153228810079600, -2165.805231443991500 ) ) ;
#46 = CARTESIAN_POINT ( 'NONE',  ( -7.500000000000000000, -785.1153228810079600, -2175.805231443991000 ) ) ;
#47 = CARTESIAN_POINT ( 'NONE',  ( -7.500000000000000000, -788.1153228810079600, -2175.805231443991000 ) ) ;
#48 = DIRECTION ( 'NONE',  ( -0.0000000000000000000, -0.0000000000000000000, 1.000000000000000000 ) ) ;
#49 = CARTESIAN_POINT ( 'NONE',  ( -15.00000000000000000, -785.1153228810079600, -2180.805231443991000 ) ) ;
#50 = DIRECTION ( 'NONE',  ( 0.0000000000000000000, 0.0000000000000000000, 1.000000000000000000 ) ) ;
#51 = DIRECTION ( 'NONE',  ( 0.0000000000000000000, 1.000000000000000000, 0.0000000000000000000 ) ) ;
#52 = CARTESIAN_POINT ( 'NONE',  ( -7.500000000000000000, -788.1153228810079600, -2173.305231443991000 ) ) ;
#53 = CARTESIAN_POINT ( 'NONE',  ( 0.0000000000000000000, -785.1153228810079600, -2180.805231443991000 ) ) ;
#54 = CARTESIAN_POINT ( 'NONE',  ( -15.00000000000000000, -785.1153228810079600, -2180.805231443991000 ) ) ;
#55 = CARTESIAN_POINT ( 'NONE',  ( -7.500000000000000000, -785.1153228810079600, -2170.805231443991000 ) ) ;
#56 = CARTESIAN_POINT ( 'NONE',  ( 0.0000000000000000000, -788.1153228810079600, -2165.805231443991500 ) ) ;
#57 = DIRECTION ( 'NONE',  ( -0.0000000000000000000, -1.000000000000000000, -0.0000000000000000000 ) ) ;
#58 = CARTESIAN_POINT ( 'NONE',  ( -7.500000000000000000, -785.1153228810079600, -2173.305231443991000 ) ) ;
#59 = DIRECTION ( 'NONE',  ( -0.0000000000000000000, 1.000000000000000000, -0.0000000000000000000 ) ) ;
#60 = DIRECTION ( 'NONE',  ( 1.000000000000000000, -0.0000000000000000000, -0.0000000000000000000 ) ) ;
#61 = DIRECTION ( 'NONE',  ( -1.000000000000000000, 0.0000000000000000000, 0.0000000000000000000 ) ) ;
#62 = PLANE ( 'NONE',  #288 ) ;
#63 = DIRECTION ( 'NONE',  ( -0.0000000000000000000, 0.0000000000000000000, -1.000000000000000000 ) ) ;
#64 = DIRECTION ( 'NONE',  ( -0.0000000000000000000, -0.0000000000000000000, -1.000000000000000000 ) ) ;
#65 = CARTESIAN_POINT ( 'NONE',  ( -15.00000000000000000, -788.1153228810079600, -2180.805231443991000 ) ) ;
#66 = DIRECTION ( 'NONE',  ( -0.0000000000000000000, -0.0000000000000000000, 1.000000000000000000 ) ) ;
#67 = CARTESIAN_POINT ( 'NONE',  ( -15.00000000000000000, -788.1153228810079600, -2180.805231443991000 ) ) ;
#68 = CARTESIAN_POINT ( 'NONE',  ( -15.00000000000000000, -785.1153228810079600, -2165.805231443991500 ) ) ;
#69 = CARTESIAN_POINT ( 'NONE',  ( -15.00000000000000000, -788.1153228810079600, -2165.805231443991500 ) ) ;
#70 = PLANE ( 'NONE',  #282 ) ;
#71 = DIRECTION ( 'NONE',  ( -0.0000000000000000000, -1.000000000000000000, -0.0000000000000000000 ) ) ;
#72 = CARTESIAN_POINT ( 'NONE',  ( 0.0000000000000000000, -788.1153228810079600, -2165.805231443991500 ) ) ;
#73 = DIRECTION ( 'NONE',  ( 1.000000000000000000, -0.0000000000000000000, -0.0000000000000000000 ) ) ;
#74 = CARTESIAN_POINT ( 'NONE',  ( -15.00000000000000000, -785.1153228810079600, -2180.805231443991000 ) ) ;
#75 = CARTESIAN_POINT ( 'NONE',  ( -15.00000000000000000, -788.1153228810079600, -2180.805231443991000 ) ) ;
#76 = CARTESIAN_POINT ( 'NONE',  ( 0.0000000000000000000, -788.1153228810079600, -2180.805231443991000 ) ) ;
#77 = CARTESIAN_POINT ( 'NONE',  ( -15.00000000000000000, -785.1153228810079600, -2180.805231443991000 ) ) ;
#78 = CARTESIAN_POINT ( 'NONE',  ( -7.500000000000000000, -785.1153228810079600, -2173.305231443991000 ) ) ;
#79 = DIRECTION ( 'NONE',  ( -0.0000000000000000000, 1.000000000000000000, -0.0000000000000000000 ) ) ;
#80 = DIRECTION ( 'NONE',  ( 0.0000000000000000000, 0.0000000000000000000, -1.000000000000000000 ) ) ;
#81 = DIRECTION ( 'NONE',  ( 1.000000000000000000, 0.0000000000000000000, 0.0000000000000000000 ) ) ;
#82 = DIRECTION ( 'NONE',  ( -0.0000000000000000000, -0.0000000000000000000, -1.000000000000000000 ) ) ;
#83 = PLANE ( 'NONE',  #310 ) ;
#84 = DIRECTION ( 'NONE',  ( 1.000000000000000000, 0.0000000000000000000, 0.0000000000000000000 ) ) ;
#85 = DIRECTION ( 'NONE',  ( 0.0000000000000000000, -0.0000000000000000000, 1.000000000000000000 ) ) ;
#86 = DIRECTION ( 'NONE',  ( 0.0000000000000000000, 1.000000000000000000, 0.0000000000000000000 ) ) ;
#87 = DIRECTION ( 'NONE',  ( 0.0000000000000000000, 0.0000000000000000000, 1.000000000000000000 ) ) ;
#88 = DIRECTION ( 'NONE',  ( 0.0000000000000000000, 0.0000000000000000000, -1.000000000000000000 ) ) ;
#89 = PLANE ( 'NONE',  #272 ) ;
#90 = CARTESIAN_POINT ( 'NONE',  ( -15.00000000000000000, -788.1153228810079600, -2165.805231443991500 ) ) ;
#91 = APPROVAL_DATE_TIME ( #92, #298 ) ;
#92 = DATE_AND_TIME ( #93, #94 ) ;
#93 = CALENDAR_DATE ( 2014, 24, 6 ) ;
#94 = LOCAL_TIME ( 10, 22, 33.00000000000000000, #95 ) ;
#95 = COORDINATED_UNIVERSAL_TIME_OFFSET ( 8, 0, .AHEAD. ) ;
#96 = APPROVAL_PERSON_ORGANIZATION ( #97, #298, #247 ) ;
#97 = PERSON_AND_ORGANIZATION ( #271, #125 ) ;
#98 = DATE_AND_TIME ( #99, #100 ) ;
#99 = CALENDAR_DATE ( 2014, 24, 6 ) ;
#100 = LOCAL_TIME ( 10, 22, 33.00000000000000000, #101 ) ;
#101 = COORDINATED_UNIVERSAL_TIME_OFFSET ( 8, 0, .AHEAD. ) ;
#102 = PERSON_AND_ORGANIZATION ( #271, #125 ) ;
#103 = PERSON_AND_ORGANIZATION ( #271, #125 ) ;
#104 = PERSON_AND_ORGANIZATION ( #271, #125 ) ;
#105 = APPROVAL_DATE_TIME ( #106, #287 ) ;
#106 = DATE_AND_TIME ( #107, #108 ) ;
#107 = CALENDAR_DATE ( 2014, 24, 6 ) ;
#108 = LOCAL_TIME ( 10, 22, 33.00000000000000000, #109 ) ;
#109 = COORDINATED_UNIVERSAL_TIME_OFFSET ( 8, 0, .AHEAD. ) ;
#110 = APPROVAL_PERSON_ORGANIZATION ( #111, #287, #234 ) ;
#111 = PERSON_AND_ORGANIZATION ( #271, #125 ) ;
#112 = DATE_AND_TIME ( #113, #114 ) ;
#113 = CALENDAR_DATE ( 2014, 24, 6 ) ;
#114 = LOCAL_TIME ( 10, 22, 33.00000000000000000, #115 ) ;
#115 = COORDINATED_UNIVERSAL_TIME_OFFSET ( 8, 0, .AHEAD. ) ;
#116 = PERSON_AND_ORGANIZATION ( #271, #125 ) ;
#117 = APPROVAL_DATE_TIME ( #118, #284 ) ;
#118 = DATE_AND_TIME ( #119, #120 ) ;
#119 = CALENDAR_DATE ( 2014, 24, 6 ) ;
#120 = LOCAL_TIME ( 10, 22, 33.00000000000000000, #121 ) ;
#121 = COORDINATED_UNIVERSAL_TIME_OFFSET ( 8, 0, .AHEAD. ) ;
#122 = APPROVAL_PERSON_ORGANIZATION ( #123, #284, #238 ) ;
#123 = PERSON_AND_ORGANIZATION ( #271, #125 ) ;
#124 = PERSON_AND_ORGANIZATION ( #271, #125 ) ;
#125 = ORGANIZATION ( 'Î´Ö¸¶¨', 'Î´Ö¸¶¨', '' ) ;
#126 = SHAPE_DEFINITION_REPRESENTATION ( #10, #21 ) ;
#127 = VECTOR ( 'NONE', #260, 1000.000000000000000 ) ;
#128 = CIRCLE ( 'NONE', #289, 2.499999999999946700 ) ;
#129 = VECTOR ( 'NONE', #269, 1000.000000000000000 ) ;
#130 = LINE ( 'NONE', #261, #127 ) ;
#131 = VECTOR ( 'NONE', #267, 1000.000000000000000 ) ;
#132 = CIRCLE ( 'NONE', #296, 2.499999999999946700 ) ;
#133 = VECTOR ( 'NONE', #29, 1000.000000000000000 ) ;
#134 = LINE ( 'NONE', #27, #133 ) ;
#135 = LINE ( 'NONE', #268, #131 ) ;
#136 = LINE ( 'NONE', #34, #137 ) ;
#137 = VECTOR ( 'NONE', #37, 1000.000000000000000 ) ;
#138 = LINE ( 'NONE', #24, #143 ) ;
#139 = LINE ( 'NONE', #265, #129 ) ;
#140 = VECTOR ( 'NONE', #48, 1000.000000000000000 ) ;
#141 = CIRCLE ( 'NONE', #274, 2.499999999999946700 ) ;
#142 = VECTOR ( 'NONE', #64, 1000.000000000000000 ) ;
#143 = VECTOR ( 'NONE', #28, 1000.000000000000000 ) ;
#144 = LINE ( 'NONE', #56, #140 ) ;
#145 = VECTOR ( 'NONE', #57, 1000.000000000000000 ) ;
#146 = CIRCLE ( 'NONE', #280, 2.499999999999946700 ) ;
#147 = VECTOR ( 'NONE', #60, 1000.000000000000000 ) ;
#148 = LINE ( 'NONE', #53, #142 ) ;
#149 = VECTOR ( 'NONE', #66, 1000.000000000000000 ) ;
#150 = LINE ( 'NONE', #74, #158 ) ;
#151 = FACE_OUTER_BOUND ( 'NONE', #202, .T. ) ;
#152 = LINE ( 'NONE', #75, #145 ) ;
#153 = CYLINDRICAL_SURFACE ( 'NONE', #311, 2.499999999999946700 ) ;
#154 = FACE_OUTER_BOUND ( 'NONE', #200, .T. ) ;
#155 = FACE_OUTER_BOUND ( 'NONE', #205, .T. ) ;
#156 = FACE_BOUND ( 'NONE', #199, .T. ) ;
#157 = CYLINDRICAL_SURFACE ( 'NONE', #283, 2.499999999999946700 ) ;
#158 = VECTOR ( 'NONE', #73, 1000.000000000000000 ) ;
#159 = FACE_OUTER_BOUND ( 'NONE', #201, .T. ) ;
#160 = FACE_OUTER_BOUND ( 'NONE', #204, .T. ) ;
#161 = FACE_BOUND ( 'NONE', #207, .T. ) ;
#162 = FACE_OUTER_BOUND ( 'NONE', #208, .T. ) ;
#163 = FACE_OUTER_BOUND ( 'NONE', #203, .T. ) ;
#164 = ORIENTED_EDGE ( 'NONE', *, *, #14, .T. ) ;
#165 = ORIENTED_EDGE ( 'NONE', *, *, #16, .T. ) ;
#166 = ORIENTED_EDGE ( 'NONE', *, *, #12, .T. ) ;
#167 = ORIENTED_EDGE ( 'NONE', *, *, #300, .T. ) ;
#168 = ORIENTED_EDGE ( 'NONE', *, *, #15, .T. ) ;
#169 = ORIENTED_EDGE ( 'NONE', *, *, #14, .F. ) ;
#170 = ORIENTED_EDGE ( 'NONE', *, *, #281, .F. ) ;
#171 = ORIENTED_EDGE ( 'NONE', *, *, #20, .T. ) ;
#172 = ORIENTED_EDGE ( 'NONE', *, *, #306, .T. ) ;
#173 = ORIENTED_EDGE ( 'NONE', *, *, #17, .T. ) ;
#174 = ORIENTED_EDGE ( 'NONE', *, *, #11, .T. ) ;
#175 = ORIENTED_EDGE ( 'NONE', *, *, #16, .F. ) ;
#176 = ORIENTED_EDGE ( 'NONE', *, *, #15, .F. ) ;
#177 = ORIENTED_EDGE ( 'NONE', *, *, #13, .T. ) ;
#178 = ORIENTED_EDGE ( 'NONE', *, *, #290, .T. ) ;
#179 = ORIENTED_EDGE ( 'NONE', *, *, #12, .F. ) ;
#180 = ORIENTED_EDGE ( 'NONE', *, *, #11, .F. ) ;
#181 = ORIENTED_EDGE ( 'NONE', *, *, #18, .T. ) ;
#182 = ORIENTED_EDGE ( 'NONE', *, *, #295, .F. ) ;
#183 = ORIENTED_EDGE ( 'NONE', *, *, #293, .F. ) ;
#184 = ORIENTED_EDGE ( 'NONE', *, *, #281, .T. ) ;
#185 = LINE ( 'NONE', #65, #147 ) ;
#186 = VECTOR ( 'NONE', #71, 1000.000000000000000 ) ;
#187 = ORIENTED_EDGE ( 'NONE', *, *, #300, .F. ) ;
#188 = ORIENTED_EDGE ( 'NONE', *, *, #290, .F. ) ;
#189 = ORIENTED_EDGE ( 'NONE', *, *, #278, .T. ) ;
#190 = ORIENTED_EDGE ( 'NONE', *, *, #294, .F. ) ;
#191 = ORIENTED_EDGE ( 'NONE', *, *, #295, .T. ) ;
#192 = ORIENTED_EDGE ( 'NONE', *, *, #306, .F. ) ;
#193 = LINE ( 'NONE', #69, #149 ) ;
#194 = LINE ( 'NONE', #76, #186 ) ;
#195 = VECTOR ( 'NONE', #82, 1000.000000000000000 ) ;
#196 = LINE ( 'NONE', #77, #195 ) ;
#197 = ORIENTED_EDGE ( 'NONE', *, *, #17, .F. ) ;
#198 = ORIENTED_EDGE ( 'NONE', *, *, #303, .T. ) ;
#199 = EDGE_LOOP ( 'NONE', ( #173, #172 ) ) ;
#200 = EDGE_LOOP ( 'NONE', ( #167, #166, #165, #164 ) ) ;
#201 = EDGE_LOOP ( 'NONE', ( #177, #176, #175, #174 ) ) ;
#202 = EDGE_LOOP ( 'NONE', ( #171, #170, #169, #168 ) ) ;
#203 = EDGE_LOOP ( 'NONE', ( #218, #223, #220, #221 ) ) ;
#204 = EDGE_LOOP ( 'NONE', ( #192, #198, #191, #190 ) ) ;
#205 = EDGE_LOOP ( 'NONE', ( #181, #180, #179, #178 ) ) ;
#206 = EDGE_LOOP ( 'NONE', ( #189, #188, #187, #184 ) ) ;
#207 = EDGE_LOOP ( 'NONE', ( #183, #182 ) ) ;
#208 = EDGE_LOOP ( 'NONE', ( #222, #197, #226, #224 ) ) ;
#209 = VERTEX_POINT ( 'NONE', #49 ) ;
#210 = VERTEX_POINT ( 'NONE', #47 ) ;
#211 = VERTEX_POINT ( 'NONE', #41 ) ;
#212 = VERTEX_POINT ( 'NONE', #45 ) ;
#213 = VERTEX_POINT ( 'NONE', #40 ) ;
#214 = VERTEX_POINT ( 'NONE', #46 ) ;
#215 = VERTEX_POINT ( 'NONE', #39 ) ;
#216 = VERTEX_POINT ( 'NONE', #55 ) ;
#217 = VERTEX_POINT ( 'NONE', #38 ) ;
#218 = ORIENTED_EDGE ( 'NONE', *, *, #278, .F. ) ;
#219 = VERTEX_POINT ( 'NONE', #35 ) ;
#220 = ORIENTED_EDGE ( 'NONE', *, *, #13, .F. ) ;
#221 = ORIENTED_EDGE ( 'NONE', *, *, #18, .F. ) ;
#222 = ORIENTED_EDGE ( 'NONE', *, *, #303, .F. ) ;
#223 = ORIENTED_EDGE ( 'NONE', *, *, #20, .F. ) ;
#224 = ORIENTED_EDGE ( 'NONE', *, *, #293, .T. ) ;
#225 = FACE_OUTER_BOUND ( 'NONE', #206, .T. ) ;
#226 = ORIENTED_EDGE ( 'NONE', *, *, #294, .T. ) ;
#227 = CLOSED_SHELL ( 'NONE', ( #8, #2, #5, #4, #6, #7, #1, #3 ) ) ;
#228 = VERTEX_POINT ( 'NONE', #33 ) ;
#229 = VERTEX_POINT ( 'NONE', #32 ) ;
#230 = PERSON_AND_ORGANIZATION_ROLE ( 'classification_officer' ) ;
#231 = SECURITY_CLASSIFICATION_LEVEL ( 'unclassified' ) ;
#232 = PERSON_AND_ORGANIZATION_ROLE ( 'design_supplier' ) ;
#233 = PERSON_AND_ORGANIZATION_ROLE ( 'creator' ) ;
#234 = APPROVAL_ROLE ( '' ) ;
#235 = APPROVAL_STATUS ( 'not_yet_approved' ) ;
#236 = DATE_TIME_ROLE ( 'creation_date' ) ;
#237 = PERSON_AND_ORGANIZATION_ROLE ( 'creator' ) ;
#238 = APPROVAL_ROLE ( '' ) ;
#239 = APPROVAL_STATUS ( 'not_yet_approved' ) ;
#240 = APPLICATION_PROTOCOL_DEFINITION ( 'international standard', 'config_control_design', 1994, #241 ) ;
#241 = APPLICATION_CONTEXT ( 'configuration controlled 3d designs of mechanical parts and assemblies' ) ;
#242 = PERSON_AND_ORGANIZATION_ROLE ( 'design_owner' ) ;
#243 = MECHANICAL_CONTEXT ( 'NONE', #246, 'mechanical' ) ;
#244 = DIRECTION ( 'NONE',  ( 1.000000000000000000, 0.0000000000000000000, 0.0000000000000000000 ) ) ;
#245 = DIRECTION ( 'NONE',  ( 0.0000000000000000000, 0.0000000000000000000, 1.000000000000000000 ) ) ;
#246 = APPLICATION_CONTEXT ( 'configuration controlled 3d designs of mechanical parts and assemblies' ) ;
#247 = APPROVAL_ROLE ( '' ) ;
#248 = APPLICATION_PROTOCOL_DEFINITION ( 'international standard', 'config_control_design', 1994, #246 ) ;
#249 = DIRECTION ( 'NONE',  ( -0.0000000000000000000, 1.000000000000000000, -0.0000000000000000000 ) ) ;
#250 = DATE_TIME_ROLE ( 'classification_date' ) ;
#251 =( NAMED_UNIT ( * ) SI_UNIT ( $, .STERADIAN. ) SOLID_ANGLE_UNIT ( ) );
#252 =( NAMED_UNIT ( * ) PLANE_ANGLE_UNIT ( ) SI_UNIT ( $, .RADIAN. ) );
#253 =( LENGTH_UNIT ( ) NAMED_UNIT ( * ) SI_UNIT ( .MILLI., .METRE. ) );
#254 = DIRECTION ( 'NONE',  ( 0.0000000000000000000, 0.0000000000000000000, 1.000000000000000000 ) ) ;
#255 = DIRECTION ( 'NONE',  ( 0.0000000000000000000, 1.000000000000000000, 0.0000000000000000000 ) ) ;
#256 = CARTESIAN_POINT ( 'NONE',  ( -7.500000000000000000, -788.1153228810079600, -2173.305231443991000 ) ) ;
#257 = CARTESIAN_POINT ( 'NONE',  ( -7.500000000000000000, -785.1153228810079600, -2173.305231443991000 ) ) ;
#258 = APPROVAL_STATUS ( 'not_yet_approved' ) ;
#259 = DIRECTION ( 'NONE',  ( 0.0000000000000000000, 0.0000000000000000000, 1.000000000000000000 ) ) ;
#260 = DIRECTION ( 'NONE',  ( -0.0000000000000000000, 1.000000000000000000, -0.0000000000000000000 ) ) ;
#261 = CARTESIAN_POINT ( 'NONE',  ( -7.500000000000000000, -785.1153228810079600, -2175.805231443991000 ) ) ;
#262 = DIRECTION ( 'NONE',  ( 0.0000000000000000000, 0.0000000000000000000, 1.000000000000000000 ) ) ;
#263 = DIRECTION ( 'NONE',  ( -0.0000000000000000000, 1.000000000000000000, -0.0000000000000000000 ) ) ;
#264 = CARTESIAN_POINT ( 'NONE',  ( -7.500000000000000000, -785.1153228810079600, -2173.305231443991000 ) ) ;
#265 = CARTESIAN_POINT ( 'NONE',  ( -15.00000000000000000, -785.1153228810079600, -2165.805231443991500 ) ) ;
#266 = CARTESIAN_POINT ( 'NONE',  ( 0.0000000000000000000, 0.0000000000000000000, 0.0000000000000000000 ) ) ;
#267 = DIRECTION ( 'NONE',  ( -0.0000000000000000000, 1.000000000000000000, -0.0000000000000000000 ) ) ;
#268 = CARTESIAN_POINT ( 'NONE',  ( -7.500000000000000000, -785.1153228810079600, -2170.805231443991000 ) ) ;
#269 = DIRECTION ( 'NONE',  ( -0.0000000000000000000, 1.000000000000000000, -0.0000000000000000000 ) ) ;
#270 = PRODUCT ( '2.12.08.M6', '2.12.08.M6', '', ( #243 ) ) ;
#271 = PERSON ( 'Î´Ö¸¶¨', 'Î´Ö¸¶¨', 'Î´Ö¸¶¨', ('Î´Ö¸¶¨'), ('Î´Ö¸¶¨'), ('Î´Ö¸¶¨') ) ;
#272 = AXIS2_PLACEMENT_3D ( 'NONE', #68, #63, #61 ) ;
#273 = CC_DESIGN_APPROVAL ( #284, ( #276 ) ) ;
#274 = AXIS2_PLACEMENT_3D ( 'NONE', #257, #249, #259 ) ;
#275 = AXIS2_PLACEMENT_3D ( 'NONE', #31, #86, #85 ) ;
#276 = PRODUCT_DEFINITION ( 'Î´Öª', '', #297, #9 ) ;
#277 = CC_DESIGN_PERSON_AND_ORGANIZATION_ASSIGNMENT ( #104, #233, ( #297 ) ) ;
#278 = EDGE_CURVE ( 'NONE', #212, #211, #136, .T. ) ;
#279 = CC_DESIGN_DATE_AND_TIME_ASSIGNMENT ( #98, #250, ( #302 ) ) ;
#280 = AXIS2_PLACEMENT_3D ( 'NONE', #52, #51, #50 ) ;
#281 = EDGE_CURVE ( 'NONE', #219, #212, #134, .T. ) ;
#282 = AXIS2_PLACEMENT_3D ( 'NONE', #72, #84, #88 ) ;
#283 = AXIS2_PLACEMENT_3D ( 'NONE', #58, #59, #87 ) ;
#284 = APPROVAL ( #239, 'Î´Ö¸¶¨' ) ;
#285 = CC_DESIGN_APPROVAL ( #287, ( #297 ) ) ;
#286 = CC_DESIGN_PERSON_AND_ORGANIZATION_ASSIGNMENT ( #103, #232, ( #297 ) ) ;
#287 = APPROVAL ( #235, 'Î´Ö¸¶¨' ) ;
#288 = AXIS2_PLACEMENT_3D ( 'NONE', #67, #43, #42 ) ;
#289 = AXIS2_PLACEMENT_3D ( 'NONE', #256, #255, #254 ) ;
#290 = EDGE_CURVE ( 'NONE', #215, #211, #138, .T. ) ;
#291 = AXIS2_PLACEMENT_3D ( 'NONE', #54, #30, #26 ) ;
#292 = CC_DESIGN_SECURITY_CLASSIFICATION ( #302, ( #297 ) ) ;
#293 = EDGE_CURVE ( 'NONE', #216, #214, #141, .T. ) ;
#294 = EDGE_CURVE ( 'NONE', #217, #216, #135, .T. ) ;
#295 = EDGE_CURVE ( 'NONE', #214, #216, #132, .T. ) ;
#296 = AXIS2_PLACEMENT_3D ( 'NONE', #264, #263, #262 ) ;
#297 = PRODUCT_DEFINITION_FORMATION_WITH_SPECIFIED_SOURCE ( 'ÈÎºÎ', '', #270, .NOT_KNOWN. ) ;
#298 = APPROVAL ( #258, 'Î´Ö¸¶¨' ) ;
#299 = PRODUCT_RELATED_PRODUCT_CATEGORY ( 'detail', '', ( #270 ) ) ;
#300 = EDGE_CURVE ( 'NONE', #219, #215, #139, .T. ) ;
#301 =( GEOMETRIC_REPRESENTATION_CONTEXT ( 3 ) GLOBAL_UNCERTAINTY_ASSIGNED_CONTEXT ( ( #23 ) ) GLOBAL_UNIT_ASSIGNED_CONTEXT ( ( #253, #252, #251 ) ) REPRESENTATION_CONTEXT ( 'NONE', 'WORKASPACE' ) );
#302 = SECURITY_CLASSIFICATION ( '', '', #231 ) ;
#303 = EDGE_CURVE ( 'NONE', #210, #214, #130, .T. ) ;
#304 = CC_DESIGN_APPROVAL ( #298, ( #302 ) ) ;
#305 = CC_DESIGN_PERSON_AND_ORGANIZATION_ASSIGNMENT ( #124, #242, ( #270 ) ) ;
#306 = EDGE_CURVE ( 'NONE', #210, #217, #128, .T. ) ;
#307 = CC_DESIGN_DATE_AND_TIME_ASSIGNMENT ( #112, #236, ( #276 ) ) ;
#308 = CC_DESIGN_PERSON_AND_ORGANIZATION_ASSIGNMENT ( #102, #230, ( #302 ) ) ;
#309 = CC_DESIGN_PERSON_AND_ORGANIZATION_ASSIGNMENT ( #116, #237, ( #276 ) ) ;
#310 = AXIS2_PLACEMENT_3D ( 'NONE', #90, #81, #80 ) ;
#311 = AXIS2_PLACEMENT_3D ( 'NONE', #78, #79, #25 ) ;
ENDSEC;
END-ISO-10303-21;
